0
SECTION
2
HEADER
9
$LTSCALE
40
1.0
9
$LIMMIN
10
-20
20
0
9
$LIMMAX
10
20020
20
20040
9
$EXTMIN
10
-20
20
0
9
$EXTMAX
10
20020
20
20040
9
$SNAPMODE
70
0
9
$SNAPUNIT
10
1.0
20
1.0
9
$GRIDMODE
70
0
9
$GRIDUNIT
10
1.0
20
1.0
9
$ORTHOMODE
70
0
9
$TEXTSTYLE
7
txt
9
$CLAYER
8
1
9
$CECOLOR
62
7
9
$CELTYPE
6
CONTINUOUS
9
$PLINEWID
40
0.0
9
$OSMODE
70
0
9
$FILLMODE
70
1
9
$CHAMFERA
40
0.5
9
$CHAMFERB
40
0.5
9
$SCOORDS
70
1
9
$FILLETRAD
40
0.5
9
$INSBASE
10
0.0
20
0.0
9
$SPLFRAME
70
0
9
$SPLINESEGS
70
8
0
ENDSEC
0
SECTION
2
TABLES
0
TABLE
2
LTYPE
70
9
0
LTYPE
2
CONTINUOUS
70
64
3
Solid line
72
65
73
0
40
0.0
0
ENDTAB
0
TABLE
2
STYLE
70
1
0
STYLE
2
ROMANS
70
0
40
0.000
41
1.000
50
0.000
71
0
42
0.000
3
ROMANS
4

0
ENDTAB
0
TABLE
2
LAYER
70
10
0
LAYER
2
1
70
0
62
7
6
CONTINUOUS
0
LAYER
2
2
70
0
62
7
6
CONTINUOUS
0
LAYER
2
3
70
0
62
7
6
CONTINUOUS
0
LAYER
2
4
70
0
62
7
6
CONTINUOUS
0
LAYER
2
5
70
0
62
7
6
CONTINUOUS
0
LAYER
2
6
70
0
62
7
6
CONTINUOUS
0
LAYER
2
7
70
0
62
7
6
CONTINUOUS
0
LAYER
2
8
70
0
62
7
6
CONTINUOUS
0
LAYER
2
9
70
0
62
7
6
CONTINUOUS
0
LAYER
2
10
70
0
62
7
6
CONTINUOUS
0
ENDTAB
0
ENDSEC
0
SECTION
2
ENTITIES
0
POLYLINE
8
0
62
255
66
1
40
1
41
1
0
VERTEX
8
0
10
20000
20
10020
0
VERTEX
8
0
10
19989
20
9508
0
VERTEX
8
0
10
19955
20
9005
0
VERTEX
8
0
10
19898
20
8511
0
VERTEX
8
0
10
19817
20
8026
0
VERTEX
8
0
10
19715
20
7552
0
VERTEX
8
0
10
19589
20
7086
0
VERTEX
8
0
10
19440
20
6630
0
VERTEX
8
0
10
19268
20
6183
0
VERTEX
8
0
10
19074
20
5746
0
VERTEX
8
0
10
18857
20
5318
0
VERTEX
8
0
10
18617
20
4900
0
VERTEX
8
0
10
18353
20
4491
0
VERTEX
8
0
10
18067
20
4092
0
VERTEX
8
0
10
17758
20
3702
0
VERTEX
8
0
10
17426
20
3322
0
VERTEX
8
0
10
17070
20
2950
0
VERTEX
8
0
10
16700
20
2596
0
VERTEX
8
0
10
16320
20
2264
0
VERTEX
8
0
10
15931
20
1956
0
VERTEX
8
0
10
15531
20
1669
0
VERTEX
8
0
10
15123
20
1406
0
VERTEX
8
0
10
14704
20
1165
0
VERTEX
8
0
10
14277
20
948
0
VERTEX
8
0
10
13839
20
753
0
VERTEX
8
0
10
13393
20
582
0
VERTEX
8
0
10
12937
20
433
0
VERTEX
8
0
10
12472
20
308
0
VERTEX
8
0
10
11996
20
204
0
VERTEX
8
0
10
11512
20
124
0
VERTEX
8
0
10
11017
20
66
0
VERTEX
8
0
10
10514
20
32
0
VERTEX
8
0
10
10000
20
20
0
VERTEX
8
0
10
9488
20
32
0
VERTEX
8
0
10
8985
20
66
0
VERTEX
8
0
10
8491
20
124
0
VERTEX
8
0
10
8006
20
204
0
VERTEX
8
0
10
7532
20
308
0
VERTEX
8
0
10
7066
20
433
0
VERTEX
8
0
10
6610
20
582
0
VERTEX
8
0
10
6163
20
753
0
VERTEX
8
0
10
5726
20
948
0
VERTEX
8
0
10
5298
20
1165
0
VERTEX
8
0
10
4880
20
1406
0
VERTEX
8
0
10
4471
20
1669
0
VERTEX
8
0
10
4072
20
1956
0
VERTEX
8
0
10
3682
20
2264
0
VERTEX
8
0
10
3302
20
2596
0
VERTEX
8
0
10
2930
20
2950
0
VERTEX
8
0
10
2576
20
3322
0
VERTEX
8
0
10
2244
20
3702
0
VERTEX
8
0
10
1936
20
4092
0
VERTEX
8
0
10
1649
20
4491
0
VERTEX
8
0
10
1386
20
4900
0
VERTEX
8
0
10
1145
20
5318
0
VERTEX
8
0
10
928
20
5746
0
VERTEX
8
0
10
733
20
6183
0
VERTEX
8
0
10
562
20
6630
0
VERTEX
8
0
10
413
20
7086
0
VERTEX
8
0
10
288
20
7552
0
VERTEX
8
0
10
184
20
8026
0
VERTEX
8
0
10
104
20
8511
0
VERTEX
8
0
10
46
20
9005
0
VERTEX
8
0
10
12
20
9508
0
VERTEX
8
0
10
0
20
10020
0
VERTEX
8
0
10
12
20
10534
0
VERTEX
8
0
10
46
20
11037
0
VERTEX
8
0
10
104
20
11532
0
VERTEX
8
0
10
184
20
12016
0
VERTEX
8
0
10
288
20
12492
0
VERTEX
8
0
10
413
20
12957
0
VERTEX
8
0
10
562
20
13413
0
VERTEX
8
0
10
733
20
13859
0
VERTEX
8
0
10
928
20
14297
0
VERTEX
8
0
10
1145
20
14724
0
VERTEX
8
0
10
1386
20
15143
0
VERTEX
8
0
10
1649
20
15551
0
VERTEX
8
0
10
1936
20
15951
0
VERTEX
8
0
10
2244
20
16340
0
VERTEX
8
0
10
2576
20
16720
0
VERTEX
8
0
10
2930
20
17090
0
VERTEX
8
0
10
3302
20
17446
0
VERTEX
8
0
10
3682
20
17778
0
VERTEX
8
0
10
4072
20
18087
0
VERTEX
8
0
10
4471
20
18373
0
VERTEX
8
0
10
4880
20
18637
0
VERTEX
8
0
10
5298
20
18877
0
VERTEX
8
0
10
5726
20
19094
0
VERTEX
8
0
10
6163
20
19288
0
VERTEX
8
0
10
6610
20
19460
0
VERTEX
8
0
10
7066
20
19609
0
VERTEX
8
0
10
7532
20
19735
0
VERTEX
8
0
10
8006
20
19837
0
VERTEX
8
0
10
8491
20
19918
0
VERTEX
8
0
10
8985
20
19975
0
VERTEX
8
0
10
9488
20
20009
0
VERTEX
8
0
10
10000
20
20020
0
VERTEX
8
0
10
10514
20
20009
0
VERTEX
8
0
10
11017
20
19975
0
VERTEX
8
0
10
11512
20
19918
0
VERTEX
8
0
10
11996
20
19837
0
VERTEX
8
0
10
12472
20
19735
0
VERTEX
8
0
10
12937
20
19609
0
VERTEX
8
0
10
13393
20
19460
0
VERTEX
8
0
10
13839
20
19288
0
VERTEX
8
0
10
14277
20
19094
0
VERTEX
8
0
10
14704
20
18877
0
VERTEX
8
0
10
15123
20
18637
0
VERTEX
8
0
10
15531
20
18373
0
VERTEX
8
0
10
15931
20
18087
0
VERTEX
8
0
10
16320
20
17778
0
VERTEX
8
0
10
16700
20
17446
0
VERTEX
8
0
10
17070
20
17090
0
VERTEX
8
0
10
17426
20
16720
0
VERTEX
8
0
10
17758
20
16340
0
VERTEX
8
0
10
18067
20
15951
0
VERTEX
8
0
10
18353
20
15551
0
VERTEX
8
0
10
18617
20
15143
0
VERTEX
8
0
10
18857
20
14724
0
VERTEX
8
0
10
19074
20
14297
0
VERTEX
8
0
10
19268
20
13859
0
VERTEX
8
0
10
19440
20
13413
0
VERTEX
8
0
10
19589
20
12957
0
VERTEX
8
0
10
19715
20
12492
0
VERTEX
8
0
10
19817
20
12016
0
VERTEX
8
0
10
19898
20
11532
0
VERTEX
8
0
10
19955
20
11037
0
VERTEX
8
0
10
19989
20
10534
0
VERTEX
8
0
10
20000
20
10020
0
SEQEND
0
POLYLINE
8
0
62
82
66
1
40
1
41
1
0
VERTEX
8
0
10
19601
20
10020
0
VERTEX
8
0
10
19591
20
9529
0
VERTEX
8
0
10
19558
20
9046
0
VERTEX
8
0
10
19503
20
8572
0
VERTEX
8
0
10
19426
20
8106
0
VERTEX
8
0
10
19327
20
7651
0
VERTEX
8
0
10
19206
20
7204
0
VERTEX
8
0
10
19063
20
6766
0
VERTEX
8
0
10
18898
20
6337
0
VERTEX
8
0
10
18713
20
5918
0
VERTEX
8
0
10
18504
20
5508
0
VERTEX
8
0
10
18273
20
5107
0
VERTEX
8
0
10
18020
20
4714
0
VERTEX
8
0
10
17746
20
4332
0
VERTEX
8
0
10
17449
20
3958
0
VERTEX
8
0
10
17130
20
3593
0
VERTEX
8
0
10
16789
20
3236
0
VERTEX
8
0
10
16434
20
2896
0
VERTEX
8
0
10
16069
20
2577
0
VERTEX
8
0
10
15695
20
2280
0
VERTEX
8
0
10
15311
20
2005
0
VERTEX
8
0
10
14919
20
1752
0
VERTEX
8
0
10
14517
20
1521
0
VERTEX
8
0
10
14107
20
1312
0
VERTEX
8
0
10
13686
20
1125
0
VERTEX
8
0
10
13258
20
960
0
VERTEX
8
0
10
12820
20
817
0
VERTEX
8
0
10
12374
20
696
0
VERTEX
8
0
10
11917
20
597
0
VERTEX
8
0
10
11452
20
520
0
VERTEX
8
0
10
10977
20
465
0
VERTEX
8
0
10
10494
20
432
0
VERTEX
8
0
10
10001
20
419
0
VERTEX
8
0
10
9510
20
432
0
VERTEX
8
0
10
9027
20
465
0
VERTEX
8
0
10
8553
20
520
0
VERTEX
8
0
10
8087
20
597
0
VERTEX
8
0
10
7632
20
696
0
VERTEX
8
0
10
7185
20
817
0
VERTEX
8
0
10
6747
20
960
0
VERTEX
8
0
10
6318
20
1125
0
VERTEX
8
0
10
5899
20
1312
0
VERTEX
8
0
10
5489
20
1521
0
VERTEX
8
0
10
5088
20
1752
0
VERTEX
8
0
10
4695
20
2005
0
VERTEX
8
0
10
4312
20
2280
0
VERTEX
8
0
10
3938
20
2577
0
VERTEX
8
0
10
3573
20
2896
0
VERTEX
8
0
10
3216
20
3236
0
VERTEX
8
0
10
2877
20
3593
0
VERTEX
8
0
10
2558
20
3958
0
VERTEX
8
0
10
2261
20
4332
0
VERTEX
8
0
10
1986
20
4714
0
VERTEX
8
0
10
1733
20
5107
0
VERTEX
8
0
10
1502
20
5508
0
VERTEX
8
0
10
1293
20
5918
0
VERTEX
8
0
10
1106
20
6337
0
VERTEX
8
0
10
941
20
6766
0
VERTEX
8
0
10
798
20
7204
0
VERTEX
8
0
10
677
20
7651
0
VERTEX
8
0
10
578
20
8106
0
VERTEX
8
0
10
501
20
8572
0
VERTEX
8
0
10
446
20
9046
0
VERTEX
8
0
10
413
20
9529
0
VERTEX
8
0
10
401
20
10020
0
VERTEX
8
0
10
413
20
10513
0
VERTEX
8
0
10
446
20
10996
0
VERTEX
8
0
10
501
20
11471
0
VERTEX
8
0
10
578
20
11935
0
VERTEX
8
0
10
677
20
12391
0
VERTEX
8
0
10
798
20
12837
0
VERTEX
8
0
10
941
20
13275
0
VERTEX
8
0
10
1106
20
13703
0
VERTEX
8
0
10
1293
20
14123
0
VERTEX
8
0
10
1502
20
14533
0
VERTEX
8
0
10
1733
20
14935
0
VERTEX
8
0
10
1986
20
15327
0
VERTEX
8
0
10
2261
20
15711
0
VERTEX
8
0
10
2558
20
16084
0
VERTEX
8
0
10
2877
20
16449
0
VERTEX
8
0
10
3216
20
16804
0
VERTEX
8
0
10
3573
20
17145
0
VERTEX
8
0
10
3938
20
17464
0
VERTEX
8
0
10
4312
20
17761
0
VERTEX
8
0
10
4695
20
18036
0
VERTEX
8
0
10
5088
20
18289
0
VERTEX
8
0
10
5489
20
18520
0
VERTEX
8
0
10
5899
20
18729
0
VERTEX
8
0
10
6318
20
18916
0
VERTEX
8
0
10
6747
20
19081
0
VERTEX
8
0
10
7185
20
19224
0
VERTEX
8
0
10
7632
20
19345
0
VERTEX
8
0
10
8087
20
19444
0
VERTEX
8
0
10
8553
20
19521
0
VERTEX
8
0
10
9027
20
19576
0
VERTEX
8
0
10
9510
20
19609
0
VERTEX
8
0
10
10001
20
19620
0
VERTEX
8
0
10
10494
20
19609
0
VERTEX
8
0
10
10977
20
19576
0
VERTEX
8
0
10
11452
20
19521
0
VERTEX
8
0
10
11917
20
19444
0
VERTEX
8
0
10
12374
20
19345
0
VERTEX
8
0
10
12820
20
19224
0
VERTEX
8
0
10
13258
20
19081
0
VERTEX
8
0
10
13686
20
18916
0
VERTEX
8
0
10
14107
20
18729
0
VERTEX
8
0
10
14517
20
18520
0
VERTEX
8
0
10
14919
20
18289
0
VERTEX
8
0
10
15311
20
18036
0
VERTEX
8
0
10
15695
20
17761
0
VERTEX
8
0
10
16069
20
17464
0
VERTEX
8
0
10
16434
20
17145
0
VERTEX
8
0
10
16789
20
16804
0
VERTEX
8
0
10
17130
20
16449
0
VERTEX
8
0
10
17449
20
16084
0
VERTEX
8
0
10
17746
20
15711
0
VERTEX
8
0
10
18020
20
15327
0
VERTEX
8
0
10
18273
20
14935
0
VERTEX
8
0
10
18504
20
14533
0
VERTEX
8
0
10
18713
20
14123
0
VERTEX
8
0
10
18898
20
13703
0
VERTEX
8
0
10
19063
20
13275
0
VERTEX
8
0
10
19206
20
12837
0
VERTEX
8
0
10
19327
20
12391
0
VERTEX
8
0
10
19426
20
11935
0
VERTEX
8
0
10
19503
20
11471
0
VERTEX
8
0
10
19558
20
10996
0
VERTEX
8
0
10
19591
20
10513
0
VERTEX
8
0
10
19601
20
10020
0
SEQEND
0
POLYLINE
8
0
62
255
66
1
40
1
41
1
0
VERTEX
8
0
10
14738
20
5282
0
VERTEX
8
0
10
14490
20
5045
0
VERTEX
8
0
10
14235
20
4823
0
VERTEX
8
0
10
13974
20
4616
0
VERTEX
8
0
10
13706
20
4424
0
VERTEX
8
0
10
13433
20
4248
0
VERTEX
8
0
10
13152
20
4087
0
VERTEX
8
0
10
12865
20
3942
0
VERTEX
8
0
10
12572
20
3811
0
VERTEX
8
0
10
12273
20
3697
0
VERTEX
8
0
10
11968
20
3597
0
VERTEX
8
0
10
11656
20
3513
0
VERTEX
8
0
10
11337
20
3443
0
VERTEX
8
0
10
11013
20
3390
0
VERTEX
8
0
10
10682
20
3351
0
VERTEX
8
0
10
10345
20
3328
0
VERTEX
8
0
10
10000
20
3320
0
VERTEX
8
0
10
9657
20
3328
0
VERTEX
8
0
10
9320
20
3351
0
VERTEX
8
0
10
8989
20
3390
0
VERTEX
8
0
10
8664
20
3443
0
VERTEX
8
0
10
8347
20
3513
0
VERTEX
8
0
10
8034
20
3597
0
VERTEX
8
0
10
7729
20
3697
0
VERTEX
8
0
10
7429
20
3811
0
VERTEX
8
0
10
7137
20
3942
0
VERTEX
8
0
10
6850
20
4087
0
VERTEX
8
0
10
6571
20
4248
0
VERTEX
8
0
10
6296
20
4424
0
VERTEX
8
0
10
6029
20
4616
0
VERTEX
8
0
10
5768
20
4823
0
VERTEX
8
0
10
5513
20
5045
0
VERTEX
8
0
10
5264
20
5282
0
VERTEX
8
0
10
5027
20
5531
0
VERTEX
8
0
10
4804
20
5786
0
VERTEX
8
0
10
4597
20
6048
0
VERTEX
8
0
10
4405
20
6315
0
VERTEX
8
0
10
4229
20
6590
0
VERTEX
8
0
10
4068
20
6870
0
VERTEX
8
0
10
3922
20
7157
0
VERTEX
8
0
10
3791
20
7449
0
VERTEX
8
0
10
3677
20
7749
0
VERTEX
8
0
10
3577
20
8054
0
VERTEX
8
0
10
3493
20
8367
0
VERTEX
8
0
10
3423
20
8684
0
VERTEX
8
0
10
3370
20
9009
0
VERTEX
8
0
10
3331
20
9340
0
VERTEX
8
0
10
3308
20
9677
0
VERTEX
8
0
10
3300
20
10020
0
VERTEX
8
0
10
3308
20
10365
0
VERTEX
8
0
10
3331
20
10702
0
VERTEX
8
0
10
3370
20
11033
0
VERTEX
8
0
10
3423
20
11357
0
VERTEX
8
0
10
3493
20
11676
0
VERTEX
8
0
10
3577
20
11987
0
VERTEX
8
0
10
3677
20
12292
0
VERTEX
8
0
10
3791
20
12591
0
VERTEX
8
0
10
3922
20
12884
0
VERTEX
8
0
10
4068
20
13171
0
VERTEX
8
0
10
4229
20
13452
0
VERTEX
8
0
10
4405
20
13725
0
VERTEX
8
0
10
4597
20
13993
0
VERTEX
8
0
10
4804
20
14254
0
VERTEX
8
0
10
5027
20
14509
0
VERTEX
8
0
10
5264
20
14756
0
VERTEX
8
0
10
5513
20
14995
0
VERTEX
8
0
10
5768
20
15217
0
VERTEX
8
0
10
6029
20
15425
0
VERTEX
8
0
10
6296
20
15616
0
VERTEX
8
0
10
6571
20
15793
0
VERTEX
8
0
10
6850
20
15954
0
VERTEX
8
0
10
7137
20
16100
0
VERTEX
8
0
10
7429
20
16229
0
VERTEX
8
0
10
7729
20
16345
0
VERTEX
8
0
10
8034
20
16445
0
VERTEX
8
0
10
8347
20
16530
0
VERTEX
8
0
10
8664
20
16598
0
VERTEX
8
0
10
8989
20
16652
0
VERTEX
8
0
10
9320
20
16690
0
VERTEX
8
0
10
9657
20
16713
0
VERTEX
8
0
10
10000
20
16720
0
VERTEX
8
0
10
10345
20
16713
0
VERTEX
8
0
10
10682
20
16690
0
VERTEX
8
0
10
11013
20
16652
0
VERTEX
8
0
10
11337
20
16598
0
VERTEX
8
0
10
11656
20
16530
0
VERTEX
8
0
10
11968
20
16445
0
VERTEX
8
0
10
12273
20
16345
0
VERTEX
8
0
10
12572
20
16229
0
VERTEX
8
0
10
12865
20
16100
0
VERTEX
8
0
10
13152
20
15954
0
VERTEX
8
0
10
13433
20
15793
0
VERTEX
8
0
10
13706
20
15616
0
VERTEX
8
0
10
13974
20
15425
0
VERTEX
8
0
10
14235
20
15217
0
VERTEX
8
0
10
14490
20
14995
0
VERTEX
8
0
10
14738
20
14756
0
VERTEX
8
0
10
14977
20
14509
0
VERTEX
8
0
10
15199
20
14254
0
VERTEX
8
0
10
15406
20
13993
0
VERTEX
8
0
10
15597
20
13725
0
VERTEX
8
0
10
15774
20
13452
0
VERTEX
8
0
10
15935
20
13171
0
VERTEX
8
0
10
16081
20
12884
0
VERTEX
8
0
10
16210
20
12591
0
VERTEX
8
0
10
16326
20
12292
0
VERTEX
8
0
10
16425
20
11987
0
VERTEX
8
0
10
16510
20
11676
0
VERTEX
8
0
10
16578
20
11357
0
VERTEX
8
0
10
16632
20
11033
0
VERTEX
8
0
10
16670
20
10702
0
VERTEX
8
0
10
16693
20
10365
0
VERTEX
8
0
10
16700
20
10020
0
VERTEX
8
0
10
16693
20
9677
0
VERTEX
8
0
10
16670
20
9340
0
VERTEX
8
0
10
16632
20
9009
0
VERTEX
8
0
10
16578
20
8684
0
VERTEX
8
0
10
16510
20
8367
0
VERTEX
8
0
10
16425
20
8054
0
VERTEX
8
0
10
16326
20
7749
0
VERTEX
8
0
10
16210
20
7449
0
VERTEX
8
0
10
16081
20
7157
0
VERTEX
8
0
10
15935
20
6870
0
VERTEX
8
0
10
15774
20
6590
0
VERTEX
8
0
10
15597
20
6315
0
VERTEX
8
0
10
15406
20
6048
0
VERTEX
8
0
10
15199
20
5786
0
VERTEX
8
0
10
14977
20
5531
0
VERTEX
8
0
10
14738
20
5282
0
SEQEND
0
POLYLINE
8
0
62
1
66
1
40
1
41
1
0
VERTEX
8
0
10
16300
20
10020
0
VERTEX
8
0
10
16293
20
9697
0
VERTEX
8
0
10
16272
20
9380
0
VERTEX
8
0
10
16236
20
9069
0
VERTEX
8
0
10
16185
20
8764
0
VERTEX
8
0
10
16121
20
8465
0
VERTEX
8
0
10
16042
20
8172
0
VERTEX
8
0
10
15948
20
7885
0
VERTEX
8
0
10
15839
20
7603
0
VERTEX
8
0
10
15717
20
7328
0
VERTEX
8
0
10
15580
20
7059
0
VERTEX
8
0
10
15429
20
6796
0
VERTEX
8
0
10
15262
20
6537
0
VERTEX
8
0
10
15082
20
6286
0
VERTEX
8
0
10
14887
20
6040
0
VERTEX
8
0
10
14678
20
5801
0
VERTEX
8
0
10
14454
20
5566
0
VERTEX
8
0
10
14221
20
5345
0
VERTEX
8
0
10
13982
20
5136
0
VERTEX
8
0
10
13737
20
4943
0
VERTEX
8
0
10
13484
20
4762
0
VERTEX
8
0
10
13227
20
4597
0
VERTEX
8
0
10
12964
20
4446
0
VERTEX
8
0
10
12695
20
4309
0
VERTEX
8
0
10
12418
20
4186
0
VERTEX
8
0
10
12137
20
4079
0
VERTEX
8
0
10
11850
20
3984
0
VERTEX
8
0
10
11557
20
3905
0
VERTEX
8
0
10
11257
20
3839
0
VERTEX
8
0
10
10952
20
3788
0
VERTEX
8
0
10
10641
20
3751
0
VERTEX
8
0
10
10324
20
3729
0
VERTEX
8
0
10
10000
20
3720
0
VERTEX
8
0
10
9677
20
3729
0
VERTEX
8
0
10
9360
20
3751
0
VERTEX
8
0
10
9049
20
3788
0
VERTEX
8
0
10
8744
20
3839
0
VERTEX
8
0
10
8445
20
3905
0
VERTEX
8
0
10
8152
20
3984
0
VERTEX
8
0
10
7865
20
4079
0
VERTEX
8
0
10
7582
20
4186
0
VERTEX
8
0
10
7307
20
4309
0
VERTEX
8
0
10
7038
20
4446
0
VERTEX
8
0
10
6775
20
4597
0
VERTEX
8
0
10
6516
20
4762
0
VERTEX
8
0
10
6265
20
4943
0
VERTEX
8
0
10
6019
20
5136
0
VERTEX
8
0
10
5780
20
5345
0
VERTEX
8
0
10
5545
20
5566
0
VERTEX
8
0
10
5322
20
5801
0
VERTEX
8
0
10
5113
20
6040
0
VERTEX
8
0
10
4919
20
6286
0
VERTEX
8
0
10
4738
20
6537
0
VERTEX
8
0
10
4573
20
6796
0
VERTEX
8
0
10
4421
20
7059
0
VERTEX
8
0
10
4284
20
7328
0
VERTEX
8
0
10
4161
20
7603
0
VERTEX
8
0
10
4054
20
7885
0
VERTEX
8
0
10
3960
20
8172
0
VERTEX
8
0
10
3881
20
8465
0
VERTEX
8
0
10
3815
20
8764
0
VERTEX
8
0
10
3765
20
9069
0
VERTEX
8
0
10
3728
20
9380
0
VERTEX
8
0
10
3707
20
9697
0
VERTEX
8
0
10
3699
20
10020
0
VERTEX
8
0
10
3707
20
10345
0
VERTEX
8
0
10
3728
20
10662
0
VERTEX
8
0
10
3765
20
10975
0
VERTEX
8
0
10
3815
20
11280
0
VERTEX
8
0
10
3881
20
11581
0
VERTEX
8
0
10
3960
20
11874
0
VERTEX
8
0
10
4054
20
12161
0
VERTEX
8
0
10
4161
20
12442
0
VERTEX
8
0
10
4284
20
12718
0
VERTEX
8
0
10
4421
20
12987
0
VERTEX
8
0
10
4573
20
13250
0
VERTEX
8
0
10
4738
20
13507
0
VERTEX
8
0
10
4919
20
13758
0
VERTEX
8
0
10
5113
20
14003
0
VERTEX
8
0
10
5322
20
14242
0
VERTEX
8
0
10
5545
20
14475
0
VERTEX
8
0
10
5780
20
14699
0
VERTEX
8
0
10
6019
20
14908
0
VERTEX
8
0
10
6265
20
15103
0
VERTEX
8
0
10
6516
20
15283
0
VERTEX
8
0
10
6775
20
15450
0
VERTEX
8
0
10
7038
20
15601
0
VERTEX
8
0
10
7307
20
15738
0
VERTEX
8
0
10
7582
20
15860
0
VERTEX
8
0
10
7865
20
15969
0
VERTEX
8
0
10
8152
20
16063
0
VERTEX
8
0
10
8445
20
16142
0
VERTEX
8
0
10
8744
20
16206
0
VERTEX
8
0
10
9049
20
16257
0
VERTEX
8
0
10
9360
20
16293
0
VERTEX
8
0
10
9677
20
16314
0
VERTEX
8
0
10
10000
20
16321
0
VERTEX
8
0
10
10324
20
16314
0
VERTEX
8
0
10
10641
20
16293
0
VERTEX
8
0
10
10952
20
16257
0
VERTEX
8
0
10
11257
20
16206
0
VERTEX
8
0
10
11557
20
16142
0
VERTEX
8
0
10
11850
20
16063
0
VERTEX
8
0
10
12137
20
15969
0
VERTEX
8
0
10
12418
20
15860
0
VERTEX
8
0
10
12695
20
15738
0
VERTEX
8
0
10
12964
20
15601
0
VERTEX
8
0
10
13227
20
15450
0
VERTEX
8
0
10
13484
20
15283
0
VERTEX
8
0
10
13737
20
15103
0
VERTEX
8
0
10
13982
20
14908
0
VERTEX
8
0
10
14221
20
14699
0
VERTEX
8
0
10
14454
20
14475
0
VERTEX
8
0
10
14678
20
14242
0
VERTEX
8
0
10
14887
20
14003
0
VERTEX
8
0
10
15082
20
13758
0
VERTEX
8
0
10
15262
20
13507
0
VERTEX
8
0
10
15429
20
13250
0
VERTEX
8
0
10
15580
20
12987
0
VERTEX
8
0
10
15717
20
12718
0
VERTEX
8
0
10
15839
20
12442
0
VERTEX
8
0
10
15948
20
12161
0
VERTEX
8
0
10
16042
20
11874
0
VERTEX
8
0
10
16121
20
11581
0
VERTEX
8
0
10
16185
20
11280
0
VERTEX
8
0
10
16236
20
10975
0
VERTEX
8
0
10
16272
20
10662
0
VERTEX
8
0
10
16293
20
10345
0
VERTEX
8
0
10
16300
20
10020
0
SEQEND
0
POLYLINE
8
0
62
255
66
1
40
1
41
1
0
VERTEX
8
0
10
1650
20
7304
0
VERTEX
8
0
10
3166
20
6882
0
VERTEX
8
0
10
2771
20
7821
0
VERTEX
8
0
10
3113
20
7996
0
VERTEX
8
0
10
3771
20
6427
0
VERTEX
8
0
10
3434
20
6254
0
VERTEX
8
0
10
1924
20
6687
0
VERTEX
8
0
10
2359
20
5644
0
VERTEX
8
0
10
2015
20
5468
0
VERTEX
8
0
10
1316
20
7135
0
VERTEX
8
0
10
1650
20
7304
0
SEQEND
0
POLYLINE
8
0
62
255
66
1
40
1
41
1
0
VERTEX
8
0
10
4307
20
5574
0
VERTEX
8
0
10
4679
20
5189
0
VERTEX
8
0
10
3854
20
4194
0
VERTEX
8
0
10
3794
20
4113
0
VERTEX
8
0
10
3750
20
4033
0
VERTEX
8
0
10
3724
20
3956
0
VERTEX
8
0
10
3714
20
3879
0
VERTEX
8
0
10
3721
20
3807
0
VERTEX
8
0
10
3745
20
3733
0
VERTEX
8
0
10
3788
20
3661
0
VERTEX
8
0
10
3849
20
3587
0
VERTEX
8
0
10
3920
20
3525
0
VERTEX
8
0
10
3988
20
3482
0
VERTEX
8
0
10
4056
20
3458
0
VERTEX
8
0
10
4122
20
3454
0
VERTEX
8
0
10
4187
20
3472
0
VERTEX
8
0
10
4254
20
3509
0
VERTEX
8
0
10
4323
20
3566
0
VERTEX
8
0
10
4393
20
3642
0
VERTEX
8
0
10
5219
20
4636
0
VERTEX
8
0
10
5595
20
4252
0
VERTEX
8
0
10
4751
20
3234
0
VERTEX
8
0
10
4625
20
3105
0
VERTEX
8
0
10
4560
20
3054
0
VERTEX
8
0
10
4492
20
3013
0
VERTEX
8
0
10
4425
20
2982
0
VERTEX
8
0
10
4355
20
2961
0
VERTEX
8
0
10
4211
20
2946
0
VERTEX
8
0
10
4138
20
2955
0
VERTEX
8
0
10
4064
20
2972
0
VERTEX
8
0
10
3912
20
3037
0
VERTEX
8
0
10
3835
20
3084
0
VERTEX
8
0
10
3757
20
3141
0
VERTEX
8
0
10
3678
20
3208
0
VERTEX
8
0
10
3597
20
3285
0
VERTEX
8
0
10
3458
20
3448
0
VERTEX
8
0
10
3353
20
3610
0
VERTEX
8
0
10
3284
20
3772
0
VERTEX
8
0
10
3250
20
3934
0
VERTEX
8
0
10
3251
20
4095
0
VERTEX
8
0
10
3286
20
4251
0
VERTEX
8
0
10
3357
20
4404
0
VERTEX
8
0
10
3462
20
4553
0
VERTEX
8
0
10
4307
20
5574
0
SEQEND
0
POLYLINE
8
0
62
255
66
1
40
1
41
1
0
VERTEX
8
0
10
4647
20
4224
0
VERTEX
8
0
10
4369
20
4508
0
VERTEX
8
0
10
4820
20
5049
0
VERTEX
8
0
10
5098
20
4765
0
VERTEX
8
0
10
4647
20
4224
0
SEQEND
0
POLYLINE
8
0
62
255
66
1
40
1
41
1
0
VERTEX
8
0
10
6975
20
3616
0
VERTEX
8
0
10
7266
20
2168
0
VERTEX
8
0
10
7650
20
3338
0
VERTEX
8
0
10
8087
20
3158
0
VERTEX
8
0
10
7417
20
1115
0
VERTEX
8
0
10
6957
20
1305
0
VERTEX
8
0
10
6633
20
3031
0
VERTEX
8
0
10
6172
20
1627
0
VERTEX
8
0
10
5735
20
1808
0
VERTEX
8
0
10
6405
20
3853
0
VERTEX
8
0
10
6975
20
3616
0
SEQEND
0
POLYLINE
8
0
62
255
66
1
40
1
41
1
0
VERTEX
8
0
10
10721
20
2846
0
VERTEX
8
0
10
10822
20
2776
0
VERTEX
8
0
10
10912
20
2692
0
VERTEX
8
0
10
10991
20
2596
0
VERTEX
8
0
10
11059
20
2488
0
VERTEX
8
0
10
11116
20
2367
0
VERTEX
8
0
10
11157
20
2235
0
VERTEX
8
0
10
11184
20
2093
0
VERTEX
8
0
10
11197
20
1939
0
VERTEX
8
0
10
11196
20
1792
0
VERTEX
8
0
10
11178
20
1651
0
VERTEX
8
0
10
11144
20
1518
0
VERTEX
8
0
10
11094
20
1391
0
VERTEX
8
0
10
11032
20
1276
0
VERTEX
8
0
10
10961
20
1174
0
VERTEX
8
0
10
10881
20
1085
0
VERTEX
8
0
10
10791
20
1010
0
VERTEX
8
0
10
10644
20
922
0
VERTEX
8
0
10
10481
20
863
0
VERTEX
8
0
10
10393
20
843
0
VERTEX
8
0
10
10296
20
826
0
VERTEX
8
0
10
10191
20
814
0
VERTEX
8
0
10
10076
20
806
0
VERTEX
8
0
10
9384
20
778
0
VERTEX
8
0
10
9297
20
2956
0
VERTEX
8
0
10
10010
20
2985
0
VERTEX
8
0
10
10126
20
2988
0
VERTEX
8
0
10
10234
20
2984
0
VERTEX
8
0
10
10334
20
2975
0
VERTEX
8
0
10
10424
20
2959
0
VERTEX
8
0
10
10588
20
2912
0
VERTEX
8
0
10
10659
20
2882
0
VERTEX
8
0
10
10721
20
2846
0
SEQEND
0
POLYLINE
8
0
62
255
66
1
40
1
41
1
0
VERTEX
8
0
10
10196
20
2570
0
VERTEX
8
0
10
10149
20
2576
0
VERTEX
8
0
10
10092
20
2579
0
VERTEX
8
0
10
10026
20
2580
0
VERTEX
8
0
10
9950
20
2578
0
VERTEX
8
0
10
9822
20
2573
0
VERTEX
8
0
10
9877
20
1210
0
VERTEX
8
0
10
10005
20
1215
0
VERTEX
8
0
10
10089
20
1220
0
VERTEX
8
0
10
10161
20
1226
0
VERTEX
8
0
10
10221
20
1234
0
VERTEX
8
0
10
10269
20
1243
0
VERTEX
8
0
10
10351
20
1272
0
VERTEX
8
0
10
10430
20
1315
0
VERTEX
8
0
10
10493
20
1366
0
VERTEX
8
0
10
10545
20
1423
0
VERTEX
8
0
10
10588
20
1486
0
VERTEX
8
0
10
10620
20
1554
0
VERTEX
8
0
10
10646
20
1636
0
VERTEX
8
0
10
10663
20
1725
0
VERTEX
8
0
10
10672
20
1821
0
VERTEX
8
0
10
10672
20
1924
0
VERTEX
8
0
10
10664
20
2030
0
VERTEX
8
0
10
10646
20
2126
0
VERTEX
8
0
10
10622
20
2213
0
VERTEX
8
0
10
10588
20
2291
0
VERTEX
8
0
10
10545
20
2362
0
VERTEX
8
0
10
10490
20
2424
0
VERTEX
8
0
10
10427
20
2478
0
VERTEX
8
0
10
10353
20
2524
0
VERTEX
8
0
10
10275
20
2555
0
VERTEX
8
0
10
10196
20
2570
0
SEQEND
0
POLYLINE
8
0
62
255
66
1
40
1
41
1
0
VERTEX
8
0
10
14846
20
4920
0
VERTEX
8
0
10
14914
20
4988
0
VERTEX
8
0
10
14979
20
5046
0
VERTEX
8
0
10
15041
20
5095
0
VERTEX
8
0
10
15100
20
5133
0
VERTEX
8
0
10
15217
20
5193
0
VERTEX
8
0
10
15334
20
5229
0
VERTEX
8
0
10
15402
20
5238
0
VERTEX
8
0
10
15469
20
5237
0
VERTEX
8
0
10
15536
20
5227
0
VERTEX
8
0
10
15601
20
5206
0
VERTEX
8
0
10
15664
20
5174
0
VERTEX
8
0
10
15725
20
5131
0
VERTEX
8
0
10
15785
20
5078
0
VERTEX
8
0
10
15842
20
5014
0
VERTEX
8
0
10
15923
20
4900
0
VERTEX
8
0
10
15984
20
4772
0
VERTEX
8
0
10
16022
20
4634
0
VERTEX
8
0
10
16030
20
4499
0
VERTEX
8
0
10
16009
20
4323
0
VERTEX
8
0
10
15958
20
4158
0
VERTEX
8
0
10
15920
20
4079
0
VERTEX
8
0
10
15869
20
3998
0
VERTEX
8
0
10
15807
20
3917
0
VERTEX
8
0
10
15733
20
3834
0
VERTEX
8
0
10
15501
20
3596
0
VERTEX
8
0
10
15932
20
3079
0
VERTEX
8
0
10
15558
20
2691
0
VERTEX
8
0
10
14231
20
4286
0
VERTEX
8
0
10
14846
20
4920
0
SEQEND
0
POLYLINE
8
0
62
255
66
1
40
1
41
1
0
VERTEX
8
0
10
14914
20
4441
0
VERTEX
8
0
10
14852
20
4377
0
VERTEX
8
0
10
15250
20
3901
0
VERTEX
8
0
10
15355
20
4011
0
VERTEX
8
0
10
15439
20
4102
0
VERTEX
8
0
10
15502
20
4182
0
VERTEX
8
0
10
15543
20
4262
0
VERTEX
8
0
10
15562
20
4343
0
VERTEX
8
0
10
15563
20
4412
0
VERTEX
8
0
10
15548
20
4478
0
VERTEX
8
0
10
15516
20
4542
0
VERTEX
8
0
10
15466
20
4608
0
VERTEX
8
0
10
15406
20
4665
0
VERTEX
8
0
10
15336
20
4694
0
VERTEX
8
0
10
15266
20
4698
0
VERTEX
8
0
10
15203
20
4681
0
VERTEX
8
0
10
15130
20
4640
0
VERTEX
8
0
10
15066
20
4589
0
VERTEX
8
0
10
15000
20
4526
0
VERTEX
8
0
10
14914
20
4441
0
SEQEND
0
POLYLINE
8
0
62
255
66
1
40
1
41
1
0
VERTEX
8
0
10
16574
20
6364
0
VERTEX
8
0
10
17060
20
6020
0
VERTEX
8
0
10
17142
20
6158
0
VERTEX
8
0
10
17205
20
6270
0
VERTEX
8
0
10
17248
20
6365
0
VERTEX
8
0
10
17272
20
6453
0
VERTEX
8
0
10
17275
20
6535
0
VERTEX
8
0
10
17261
20
6602
0
VERTEX
8
0
10
17231
20
6662
0
VERTEX
8
0
10
17187
20
6713
0
VERTEX
8
0
10
17127
20
6762
0
VERTEX
8
0
10
17056
20
6799
0
VERTEX
8
0
10
16982
20
6807
0
VERTEX
8
0
10
16913
20
6792
0
VERTEX
8
0
10
16855
20
6757
0
VERTEX
8
0
10
16791
20
6697
0
VERTEX
8
0
10
16738
20
6630
0
VERTEX
8
0
10
16687
20
6551
0
VERTEX
8
0
10
16621
20
6443
0
VERTEX
8
0
10
16574
20
6364
0
SEQEND
0
POLYLINE
8
0
62
255
66
1
40
1
41
1
0
VERTEX
8
0
10
16660
20
7161
0
VERTEX
8
0
10
16762
20
7253
0
VERTEX
8
0
10
16868
20
7321
0
VERTEX
8
0
10
16934
20
7350
0
VERTEX
8
0
10
17000
20
7368
0
VERTEX
8
0
10
17067
20
7377
0
VERTEX
8
0
10
17134
20
7375
0
VERTEX
8
0
10
17204
20
7362
0
VERTEX
8
0
10
17272
20
7338
0
VERTEX
8
0
10
17341
20
7304
0
VERTEX
8
0
10
17409
20
7258
0
VERTEX
8
0
10
17513
20
7172
0
VERTEX
8
0
10
17599
20
7067
0
VERTEX
8
0
10
17665
20
6945
0
VERTEX
8
0
10
17702
20
6817
0
VERTEX
8
0
10
17717
20
6642
0
VERTEX
8
0
10
17700
20
6470
0
VERTEX
8
0
10
17679
20
6383
0
VERTEX
8
0
10
17646
20
6291
0
VERTEX
8
0
10
17603
20
6195
0
VERTEX
8
0
10
17547
20
6095
0
VERTEX
8
0
10
17371
20
5802
0
VERTEX
8
0
10
17900
20
5427
0
VERTEX
8
0
10
17612
20
4950
0
VERTEX
8
0
10
15983
20
6100
0
VERTEX
8
0
10
16455
20
6885
0
VERTEX
8
0
10
16508
20
6969
0
VERTEX
8
0
10
16560
20
7042
0
VERTEX
8
0
10
16611
20
7107
0
VERTEX
8
0
10
16660
20
7161
0
SEQEND
0
POLYLINE
8
0
62
255
66
1
40
1
41
1
0
VERTEX
8
0
10
13876
20
1777
0
VERTEX
8
0
10
13589
20
2119
0
VERTEX
8
0
10
12926
20
1791
0
VERTEX
8
0
10
12968
20
1325
0
VERTEX
8
0
10
12504
20
1094
0
VERTEX
8
0
10
12353
20
3415
0
VERTEX
8
0
10
12882
20
3677
0
VERTEX
8
0
10
14355
20
2015
0
VERTEX
8
0
10
13876
20
1777
0
SEQEND
0
POLYLINE
8
0
62
255
66
1
40
1
41
1
0
VERTEX
8
0
10
12891
20
2212
0
VERTEX
8
0
10
13329
20
2431
0
VERTEX
8
0
10
12821
20
3033
0
VERTEX
8
0
10
12891
20
2212
0
SEQEND
0
POLYLINE
8
0
62
255
66
1
40
1
41
1
0
VERTEX
8
0
10
13162
20
13199
0
VERTEX
8
0
10
13091
20
13178
0
VERTEX
8
0
10
13054
20
13150
0
VERTEX
8
0
10
13039
20
13131
0
VERTEX
8
0
10
13024
20
13120
0
VERTEX
8
0
10
13083
20
13084
0
VERTEX
8
0
10
13132
20
13072
0
VERTEX
8
0
10
13172
20
13085
0
VERTEX
8
0
10
13201
20
13121
0
VERTEX
8
0
10
13218
20
13163
0
VERTEX
8
0
10
13217
20
13190
0
VERTEX
8
0
10
13199
20
13202
0
VERTEX
8
0
10
13162
20
13199
0
SEQEND
0
POLYLINE
8
0
62
255
66
1
40
1
41
1
0
VERTEX
8
0
10
13406
20
13802
0
VERTEX
8
0
10
13410
20
13828
0
VERTEX
8
0
10
13417
20
13844
0
VERTEX
8
0
10
13349
20
13846
0
VERTEX
8
0
10
13300
20
13832
0
VERTEX
8
0
10
13272
20
13802
0
VERTEX
8
0
10
13264
20
13754
0
VERTEX
8
0
10
13271
20
13711
0
VERTEX
8
0
10
13285
20
13688
0
VERTEX
8
0
10
13307
20
13687
0
VERTEX
8
0
10
13337
20
13706
0
VERTEX
8
0
10
13367
20
13736
0
VERTEX
8
0
10
13388
20
13761
0
VERTEX
8
0
10
13406
20
13802
0
SEQEND
0
POLYLINE
8
0
62
255
66
1
40
1
41
1
0
VERTEX
8
0
10
13770
20
13952
0
VERTEX
8
0
10
13800
20
13982
0
VERTEX
8
0
10
13821
20
14007
0
VERTEX
8
0
10
13839
20
14048
0
VERTEX
8
0
10
13843
20
14074
0
VERTEX
8
0
10
13850
20
14090
0
VERTEX
8
0
10
13782
20
14092
0
VERTEX
8
0
10
13733
20
14078
0
VERTEX
8
0
10
13705
20
14048
0
VERTEX
8
0
10
13697
20
14000
0
VERTEX
8
0
10
13704
20
13957
0
VERTEX
8
0
10
13718
20
13934
0
VERTEX
8
0
10
13740
20
13933
0
VERTEX
8
0
10
13770
20
13952
0
SEQEND
0
POLYLINE
8
0
62
255
66
1
40
1
41
1
0
VERTEX
8
0
10
13285
20
13102
0
VERTEX
8
0
10
13413
20
13093
0
VERTEX
8
0
10
13532
20
13091
0
VERTEX
8
0
10
13643
20
13097
0
VERTEX
8
0
10
13744
20
13109
0
VERTEX
8
0
10
13838
20
13130
0
VERTEX
8
0
10
13922
20
13158
0
VERTEX
8
0
10
13998
20
13194
0
VERTEX
8
0
10
14065
20
13236
0
VERTEX
8
0
10
14124
20
13288
0
VERTEX
8
0
10
14174
20
13346
0
VERTEX
8
0
10
14216
20
13412
0
VERTEX
8
0
10
14249
20
13485
0
VERTEX
8
0
10
14274
20
13567
0
VERTEX
8
0
10
14289
20
13656
0
VERTEX
8
0
10
14296
20
13752
0
VERTEX
8
0
10
14294
20
13856
0
VERTEX
8
0
10
14093
20
13858
0
VERTEX
8
0
10
13913
20
13832
0
VERTEX
8
0
10
13754
20
13779
0
VERTEX
8
0
10
13617
20
13698
0
VERTEX
8
0
10
13502
20
13591
0
VERTEX
8
0
10
13408
20
13455
0
VERTEX
8
0
10
13336
20
13293
0
VERTEX
8
0
10
13285
20
13102
0
SEQEND
0
POLYLINE
8
0
62
255
66
1
40
1
41
1
0
VERTEX
8
0
10
13223
20
15127
0
VERTEX
8
0
10
13127
20
14956
0
VERTEX
8
0
10
13064
20
14790
0
VERTEX
8
0
10
13035
20
14630
0
VERTEX
8
0
10
13038
20
14475
0
VERTEX
8
0
10
13076
20
14326
0
VERTEX
8
0
10
13147
20
14182
0
VERTEX
8
0
10
13252
20
14044
0
VERTEX
8
0
10
13389
20
13911
0
VERTEX
8
0
10
13458
20
14016
0
VERTEX
8
0
10
13516
20
14116
0
VERTEX
8
0
10
13564
20
14213
0
VERTEX
8
0
10
13601
20
14305
0
VERTEX
8
0
10
13628
20
14395
0
VERTEX
8
0
10
13644
20
14480
0
VERTEX
8
0
10
13650
20
14562
0
VERTEX
8
0
10
13644
20
14639
0
VERTEX
8
0
10
13629
20
14714
0
VERTEX
8
0
10
13603
20
14784
0
VERTEX
8
0
10
13566
20
14851
0
VERTEX
8
0
10
13518
20
14913
0
VERTEX
8
0
10
13461
20
14973
0
VERTEX
8
0
10
13392
20
15028
0
VERTEX
8
0
10
13313
20
15080
0
VERTEX
8
0
10
13223
20
15127
0
SEQEND
0
POLYLINE
8
0
62
255
66
1
40
1
41
1
0
VERTEX
8
0
10
17120
20
11298
0
VERTEX
8
0
10
17120
20
11297
0
SEQEND
0
POLYLINE
8
0
62
1
66
1
40
1
41
1
0
VERTEX
8
0
10
17120
20
11297
0
VERTEX
8
0
10
17118
20
11297
0
VERTEX
8
0
10
17120
20
11298
0
SEQEND
0
POLYLINE
8
0
62
11
66
1
40
1
41
1
0
VERTEX
8
0
10
17120
20
11298
0
VERTEX
8
0
10
17881
20
11870
0
VERTEX
8
0
10
12228
20
11870
0
VERTEX
8
0
10
12229
20
11068
0
VERTEX
8
0
10
16818
20
11068
0
VERTEX
8
0
10
17120
20
11297
0
SEQEND
0
POLYLINE
8
0
62
255
66
1
40
1
41
1
0
VERTEX
8
0
10
16893
20
10918
0
VERTEX
8
0
10
12229
20
10918
0
VERTEX
8
0
10
12229
20
10758
0
VERTEX
8
0
10
16681
20
10758
0
VERTEX
8
0
10
15236
20
9671
0
VERTEX
8
0
10
12229
20
9665
0
VERTEX
8
0
10
12222
20
9613
0
VERTEX
8
0
10
12216
20
9573
0
VERTEX
8
0
10
12229
20
9573
0
VERTEX
8
0
10
12229
20
9533
0
VERTEX
8
0
10
15053
20
9533
0
VERTEX
8
0
10
13629
20
8461
0
VERTEX
8
0
10
11917
20
8461
0
VERTEX
8
0
10
11871
20
8375
0
VERTEX
8
0
10
11834
20
8297
0
VERTEX
8
0
10
11798
20
8218
0
VERTEX
8
0
10
11752
20
8124
0
VERTEX
8
0
10
11720
20
8063
0
VERTEX
8
0
10
11667
20
7970
0
VERTEX
8
0
10
11600
20
7858
0
VERTEX
8
0
10
11552
20
7781
0
VERTEX
8
0
10
11508
20
7712
0
VERTEX
8
0
10
11470
20
7655
0
VERTEX
8
0
10
11437
20
7606
0
VERTEX
8
0
10
11434
20
7602
0
VERTEX
8
0
10
11379
20
7527
0
VERTEX
8
0
10
11330
20
7466
0
VERTEX
8
0
10
11278
20
7402
0
VERTEX
8
0
10
11212
20
7317
0
VERTEX
8
0
10
11167
20
7263
0
VERTEX
8
0
10
11104
20
7193
0
VERTEX
8
0
10
11023
20
7108
0
VERTEX
8
0
10
10924
20
7006
0
VERTEX
8
0
10
10810
20
6898
0
VERTEX
8
0
10
10681
20
6789
0
VERTEX
8
0
10
10537
20
6680
0
VERTEX
8
0
10
10378
20
6569
0
VERTEX
8
0
10
10300
20
6520
0
VERTEX
8
0
10
10225
20
6481
0
VERTEX
8
0
10
10153
20
6452
0
VERTEX
8
0
10
10085
20
6433
0
VERTEX
8
0
10
10004
20
6422
0
VERTEX
8
0
10
10000
20
6422
0
VERTEX
8
0
10
9997
20
6422
0
VERTEX
8
0
10
9914
20
6434
0
VERTEX
8
0
10
9824
20
6462
0
VERTEX
8
0
10
9727
20
6507
0
VERTEX
8
0
10
9623
20
6569
0
VERTEX
8
0
10
9466
20
6680
0
VERTEX
8
0
10
9322
20
6789
0
VERTEX
8
0
10
9193
20
6898
0
VERTEX
8
0
10
9077
20
7006
0
VERTEX
8
0
10
8979
20
7108
0
VERTEX
8
0
10
8898
20
7193
0
VERTEX
8
0
10
8835
20
7263
0
VERTEX
8
0
10
8790
20
7317
0
VERTEX
8
0
10
8724
20
7402
0
VERTEX
8
0
10
8671
20
7466
0
VERTEX
8
0
10
8623
20
7527
0
VERTEX
8
0
10
8567
20
7602
0
VERTEX
8
0
10
8565
20
7606
0
VERTEX
8
0
10
8533
20
7655
0
VERTEX
8
0
10
8494
20
7712
0
VERTEX
8
0
10
8451
20
7781
0
VERTEX
8
0
10
8401
20
7858
0
VERTEX
8
0
10
8334
20
7970
0
VERTEX
8
0
10
8281
20
8063
0
VERTEX
8
0
10
8249
20
8124
0
VERTEX
8
0
10
8205
20
8218
0
VERTEX
8
0
10
8168
20
8297
0
VERTEX
8
0
10
8131
20
8375
0
VERTEX
8
0
10
8084
20
8461
0
VERTEX
8
0
10
6373
20
8461
0
VERTEX
8
0
10
4949
20
9533
0
VERTEX
8
0
10
7772
20
9533
0
VERTEX
8
0
10
7772
20
9663
0
VERTEX
8
0
10
7773
20
9665
0
VERTEX
8
0
10
4765
20
9671
0
VERTEX
8
0
10
3321
20
10758
0
VERTEX
8
0
10
7772
20
10758
0
VERTEX
8
0
10
7772
20
10918
0
VERTEX
8
0
10
3108
20
10918
0
VERTEX
8
0
10
1655
20
12011
0
VERTEX
8
0
10
7772
20
12011
0
VERTEX
8
0
10
7772
20
12666
0
VERTEX
8
0
10
7778
20
12776
0
VERTEX
8
0
10
7808
20
12879
0
VERTEX
8
0
10
7864
20
12976
0
VERTEX
8
0
10
7945
20
13067
0
VERTEX
8
0
10
8060
20
13149
0
VERTEX
8
0
10
8168
20
13211
0
VERTEX
8
0
10
8289
20
13268
0
VERTEX
8
0
10
8512
20
13354
0
VERTEX
8
0
10
8690
20
13406
0
VERTEX
8
0
10
9022
20
13489
0
VERTEX
8
0
10
9351
20
13552
0
VERTEX
8
0
10
9677
20
13596
0
VERTEX
8
0
10
10000
20
13621
0
VERTEX
8
0
10
10324
20
13596
0
VERTEX
8
0
10
10650
20
13552
0
VERTEX
8
0
10
10979
20
13489
0
VERTEX
8
0
10
11310
20
13406
0
VERTEX
8
0
10
11489
20
13354
0
VERTEX
8
0
10
11711
20
13268
0
VERTEX
8
0
10
11833
20
13211
0
VERTEX
8
0
10
11940
20
13149
0
VERTEX
8
0
10
12056
20
13067
0
VERTEX
8
0
10
12138
20
12976
0
VERTEX
8
0
10
12193
20
12879
0
VERTEX
8
0
10
12224
20
12776
0
VERTEX
8
0
10
12228
20
12666
0
VERTEX
8
0
10
12228
20
12011
0
VERTEX
8
0
10
18345
20
12011
0
VERTEX
8
0
10
16893
20
10918
0
SEQEND
0
POLYLINE
8
0
62
11
66
1
40
1
41
1
0
VERTEX
8
0
10
13541
20
8596
0
VERTEX
8
0
10
11969
20
8596
0
VERTEX
8
0
10
12049
20
8823
0
VERTEX
8
0
10
12108
20
9033
0
VERTEX
8
0
10
12155
20
9226
0
VERTEX
8
0
10
12194
20
9398
0
VERTEX
8
0
10
14606
20
9398
0
VERTEX
8
0
10
13541
20
8596
0
SEQEND
0
POLYLINE
8
0
62
11
66
1
40
1
41
1
0
VERTEX
8
0
10
15148
20
9805
0
VERTEX
8
0
10
12229
20
9805
0
VERTEX
8
0
10
12229
20
10608
0
VERTEX
8
0
10
16209
20
10608
0
VERTEX
8
0
10
15148
20
9805
0
SEQEND
0
POLYLINE
8
0
62
11
66
1
40
1
41
1
0
VERTEX
8
0
10
12089
20
10880
0
VERTEX
8
0
10
12090
20
10608
0
VERTEX
8
0
10
12089
20
10608
0
VERTEX
8
0
10
12089
20
9805
0
VERTEX
8
0
10
12090
20
9805
0
VERTEX
8
0
10
12090
20
9680
0
VERTEX
8
0
10
12089
20
9676
0
VERTEX
8
0
10
12088
20
9664
0
VERTEX
8
0
10
12074
20
9573
0
VERTEX
8
0
10
12074
20
9572
0
VERTEX
8
0
10
12071
20
9552
0
VERTEX
8
0
10
12068
20
9533
0
VERTEX
8
0
10
12064
20
9512
0
VERTEX
8
0
10
12060
20
9491
0
VERTEX
8
0
10
12043
20
9398
0
VERTEX
8
0
10
11997
20
9188
0
VERTEX
8
0
10
11943
20
8984
0
VERTEX
8
0
10
11881
20
8787
0
VERTEX
8
0
10
11811
20
8596
0
VERTEX
8
0
10
11756
20
8461
0
VERTEX
8
0
10
11654
20
8242
0
VERTEX
8
0
10
11625
20
8182
0
VERTEX
8
0
10
11607
20
8149
0
VERTEX
8
0
10
11434
20
7852
0
VERTEX
8
0
10
11415
20
7822
0
VERTEX
8
0
10
11386
20
7779
0
VERTEX
8
0
10
11285
20
7636
0
VERTEX
8
0
10
11164
20
7480
0
VERTEX
8
0
10
10989
20
7281
0
VERTEX
8
0
10
10799
20
7091
0
VERTEX
8
0
10
10564
20
6886
0
VERTEX
8
0
10
10308
20
6694
0
VERTEX
8
0
10
10269
20
6662
0
VERTEX
8
0
10
10203
20
6618
0
VERTEX
8
0
10
10137
20
6585
0
VERTEX
8
0
10
10071
20
6565
0
VERTEX
8
0
10
10004
20
6556
0
VERTEX
8
0
10
10000
20
6556
0
VERTEX
8
0
10
9997
20
6556
0
VERTEX
8
0
10
9922
20
6567
0
VERTEX
8
0
10
9846
20
6593
0
VERTEX
8
0
10
9770
20
6636
0
VERTEX
8
0
10
9693
20
6694
0
VERTEX
8
0
10
9439
20
6886
0
VERTEX
8
0
10
9203
20
7091
0
VERTEX
8
0
10
9014
20
7281
0
VERTEX
8
0
10
8838
20
7480
0
VERTEX
8
0
10
8716
20
7636
0
VERTEX
8
0
10
8615
20
7779
0
VERTEX
8
0
10
8587
20
7822
0
VERTEX
8
0
10
8567
20
7852
0
VERTEX
8
0
10
8394
20
8149
0
VERTEX
8
0
10
8377
20
8182
0
VERTEX
8
0
10
8347
20
8242
0
VERTEX
8
0
10
8245
20
8461
0
VERTEX
8
0
10
8191
20
8596
0
VERTEX
8
0
10
8121
20
8787
0
VERTEX
8
0
10
8059
20
8984
0
VERTEX
8
0
10
8005
20
9188
0
VERTEX
8
0
10
7959
20
9398
0
VERTEX
8
0
10
7941
20
9491
0
VERTEX
8
0
10
7938
20
9512
0
VERTEX
8
0
10
7934
20
9533
0
VERTEX
8
0
10
7931
20
9552
0
VERTEX
8
0
10
7927
20
9572
0
VERTEX
8
0
10
7927
20
9573
0
VERTEX
8
0
10
7913
20
9664
0
VERTEX
8
0
10
7912
20
9676
0
VERTEX
8
0
10
7912
20
9680
0
VERTEX
8
0
10
7912
20
9805
0
VERTEX
8
0
10
7912
20
10608
0
VERTEX
8
0
10
7912
20
10758
0
VERTEX
8
0
10
7912
20
12666
0
VERTEX
8
0
10
7917
20
12751
0
VERTEX
8
0
10
7940
20
12828
0
VERTEX
8
0
10
7983
20
12901
0
VERTEX
8
0
10
8045
20
12967
0
VERTEX
8
0
10
8109
20
13018
0
VERTEX
8
0
10
8184
20
13064
0
VERTEX
8
0
10
8272
20
13108
0
VERTEX
8
0
10
8372
20
13146
0
VERTEX
8
0
10
8382
20
13149
0
VERTEX
8
0
10
8512
20
13194
0
VERTEX
8
0
10
8730
20
13263
0
VERTEX
8
0
10
9053
20
13349
0
VERTEX
8
0
10
9372
20
13412
0
VERTEX
8
0
10
9688
20
13455
0
VERTEX
8
0
10
10000
20
13475
0
VERTEX
8
0
10
10314
20
13455
0
VERTEX
8
0
10
10630
20
13412
0
VERTEX
8
0
10
10949
20
13349
0
VERTEX
8
0
10
11271
20
13263
0
VERTEX
8
0
10
11489
20
13194
0
VERTEX
8
0
10
11619
20
13149
0
VERTEX
8
0
10
11628
20
13146
0
VERTEX
8
0
10
11729
20
13108
0
VERTEX
8
0
10
11817
20
13064
0
VERTEX
8
0
10
11893
20
13018
0
VERTEX
8
0
10
11956
20
12967
0
VERTEX
8
0
10
12019
20
12901
0
VERTEX
8
0
10
12061
20
12828
0
VERTEX
8
0
10
12085
20
12751
0
VERTEX
8
0
10
12089
20
12666
0
VERTEX
8
0
10
12089
20
11870
0
VERTEX
8
0
10
12089
20
11068
0
VERTEX
8
0
10
12089
20
10918
0
SEQEND
0
POLYLINE
8
0
62
255
66
1
40
1
41
1
0
VERTEX
8
0
10
12608
20
12903
0
VERTEX
8
0
10
12712
20
12975
0
VERTEX
8
0
10
12803
20
13046
0
VERTEX
8
0
10
12884
20
13118
0
VERTEX
8
0
10
12953
20
13189
0
VERTEX
8
0
10
13012
20
13263
0
VERTEX
8
0
10
13058
20
13336
0
VERTEX
8
0
10
13094
20
13410
0
VERTEX
8
0
10
13118
20
13483
0
VERTEX
8
0
10
13132
20
13559
0
VERTEX
8
0
10
13134
20
13634
0
VERTEX
8
0
10
13125
20
13710
0
VERTEX
8
0
10
13104
20
13785
0
VERTEX
8
0
10
13073
20
13862
0
VERTEX
8
0
10
13030
20
13939
0
VERTEX
8
0
10
12976
20
14017
0
VERTEX
8
0
10
12910
20
14094
0
VERTEX
8
0
10
12757
20
13972
0
VERTEX
8
0
10
12636
20
13841
0
VERTEX
8
0
10
12549
20
13704
0
VERTEX
8
0
10
12494
20
13558
0
VERTEX
8
0
10
12473
20
13406
0
VERTEX
8
0
10
12485
20
13246
0
VERTEX
8
0
10
12530
20
13079
0
VERTEX
8
0
10
12608
20
12903
0
SEQEND
0
POLYLINE
8
0
62
11
66
1
40
1
41
1
0
VERTEX
8
0
10
6461
20
8596
0
VERTEX
8
0
10
8032
20
8596
0
VERTEX
8
0
10
7954
20
8823
0
VERTEX
8
0
10
7894
20
9033
0
VERTEX
8
0
10
7848
20
9226
0
VERTEX
8
0
10
7807
20
9398
0
VERTEX
8
0
10
5395
20
9398
0
VERTEX
8
0
10
6461
20
8596
0
SEQEND
0
POLYLINE
8
0
62
11
66
1
40
1
41
1
0
VERTEX
8
0
10
4853
20
9805
0
VERTEX
8
0
10
7772
20
9805
0
VERTEX
8
0
10
7772
20
10608
0
VERTEX
8
0
10
3792
20
10608
0
VERTEX
8
0
10
4853
20
9805
0
SEQEND
0
POLYLINE
8
0
62
255
66
1
40
1
41
1
0
VERTEX
8
0
10
2880
20
11298
0
VERTEX
8
0
10
2880
20
11297
0
SEQEND
0
POLYLINE
8
0
62
1
66
1
40
1
41
1
0
VERTEX
8
0
10
2880
20
11297
0
VERTEX
8
0
10
2882
20
11297
0
VERTEX
8
0
10
2880
20
11298
0
SEQEND
0
POLYLINE
8
0
62
11
66
1
40
1
41
1
0
VERTEX
8
0
10
2880
20
11298
0
VERTEX
8
0
10
2119
20
11870
0
VERTEX
8
0
10
7772
20
11870
0
VERTEX
8
0
10
7772
20
11068
0
VERTEX
8
0
10
3183
20
11068
0
VERTEX
8
0
10
2880
20
11297
0
SEQEND
0
POLYLINE
8
0
62
1
66
1
40
1
41
1
0
VERTEX
8
0
10
12089
20
10880
0
VERTEX
8
0
10
12089
20
10851
0
VERTEX
8
0
10
12089
20
10918
0
SEQEND
0
POLYLINE
8
0
62
255
66
1
40
1
41
1
0
VERTEX
8
0
10
12089
20
10918
0
VERTEX
8
0
10
12089
20
10880
0
SEQEND
0
POLYLINE
8
0
62
255
66
1
40
1
41
1
0
VERTEX
8
0
10
8864
20
7035
0
VERTEX
8
0
10
8705
20
6912
0
VERTEX
8
0
10
8551
20
6800
0
VERTEX
8
0
10
8403
20
6701
0
VERTEX
8
0
10
8259
20
6614
0
VERTEX
8
0
10
8122
20
6541
0
VERTEX
8
0
10
7989
20
6480
0
VERTEX
8
0
10
7862
20
6432
0
VERTEX
8
0
10
7739
20
6395
0
VERTEX
8
0
10
7653
20
6274
0
VERTEX
8
0
10
7581
20
6147
0
VERTEX
8
0
10
7525
20
6014
0
VERTEX
8
0
10
7483
20
5875
0
VERTEX
8
0
10
7283
20
6013
0
VERTEX
8
0
10
7377
20
6217
0
VERTEX
8
0
10
7488
20
6411
0
VERTEX
8
0
10
7619
20
6597
0
VERTEX
8
0
10
7767
20
6774
0
VERTEX
8
0
10
7935
20
6943
0
VERTEX
8
0
10
8120
20
7102
0
VERTEX
8
0
10
8324
20
7253
0
VERTEX
8
0
10
8545
20
7395
0
VERTEX
8
0
10
8700
20
7209
0
VERTEX
8
0
10
8864
20
7035
0
SEQEND
0
POLYLINE
8
0
62
255
66
1
40
1
41
1
0
VERTEX
8
0
10
7133
20
6489
0
VERTEX
8
0
10
7238
20
6562
0
VERTEX
8
0
10
7331
20
6634
0
VERTEX
8
0
10
7413
20
6707
0
VERTEX
8
0
10
7483
20
6779
0
VERTEX
8
0
10
7543
20
6853
0
VERTEX
8
0
10
7590
20
6927
0
VERTEX
8
0
10
7626
20
7002
0
VERTEX
8
0
10
7650
20
7076
0
VERTEX
8
0
10
7664
20
7153
0
VERTEX
8
0
10
7666
20
7229
0
VERTEX
8
0
10
7657
20
7306
0
VERTEX
8
0
10
7636
20
7382
0
VERTEX
8
0
10
7605
20
7460
0
VERTEX
8
0
10
7561
20
7538
0
VERTEX
8
0
10
7506
20
7617
0
VERTEX
8
0
10
7439
20
7695
0
VERTEX
8
0
10
7284
20
7572
0
VERTEX
8
0
10
7161
20
7440
0
VERTEX
8
0
10
7072
20
7301
0
VERTEX
8
0
10
7017
20
7153
0
VERTEX
8
0
10
6996
20
6999
0
VERTEX
8
0
10
7008
20
6836
0
VERTEX
8
0
10
7054
20
6667
0
VERTEX
8
0
10
7133
20
6489
0
SEQEND
0
POLYLINE
8
0
62
255
66
1
40
1
41
1
0
VERTEX
8
0
10
7804
20
7227
0
VERTEX
8
0
10
7870
20
7198
0
VERTEX
8
0
10
7927
20
7180
0
VERTEX
8
0
10
7977
20
7174
0
VERTEX
8
0
10
8019
20
7179
0
VERTEX
8
0
10
8054
20
7197
0
VERTEX
8
0
10
8080
20
7225
0
VERTEX
8
0
10
8100
20
7265
0
VERTEX
8
0
10
8110
20
7316
0
VERTEX
8
0
10
8067
20
7341
0
VERTEX
8
0
10
8025
20
7354
0
VERTEX
8
0
10
7984
20
7359
0
VERTEX
8
0
10
7945
20
7352
0
VERTEX
8
0
10
7908
20
7337
0
VERTEX
8
0
10
7872
20
7310
0
VERTEX
8
0
10
7837
20
7274
0
VERTEX
8
0
10
7804
20
7227
0
SEQEND
0
POLYLINE
8
0
62
255
66
1
40
1
41
1
0
VERTEX
8
0
10
8423
20
7559
0
VERTEX
8
0
10
8247
20
7829
0
VERTEX
8
0
10
8084
20
8119
0
VERTEX
8
0
10
8067
20
8146
0
VERTEX
8
0
10
7954
20
7988
0
VERTEX
8
0
10
7869
20
7829
0
VERTEX
8
0
10
7814
20
7671
0
VERTEX
8
0
10
7789
20
7513
0
VERTEX
8
0
10
7935
20
7479
0
VERTEX
8
0
10
8089
20
7475
0
VERTEX
8
0
10
8252
20
7502
0
VERTEX
8
0
10
8423
20
7559
0
SEQEND
0
POLYLINE
8
0
62
255
66
1
40
1
41
1
0
VERTEX
8
0
10
12373
20
12214
0
VERTEX
8
0
10
12500
20
12192
0
VERTEX
8
0
10
12618
20
12177
0
VERTEX
8
0
10
12729
20
12171
0
VERTEX
8
0
10
12831
20
12172
0
VERTEX
8
0
10
12927
20
12184
0
VERTEX
8
0
10
13013
20
12202
0
VERTEX
8
0
10
13093
20
12230
0
VERTEX
8
0
10
13163
20
12265
0
VERTEX
8
0
10
13228
20
12311
0
VERTEX
8
0
10
13284
20
12364
0
VERTEX
8
0
10
13332
20
12426
0
VERTEX
8
0
10
13372
20
12495
0
VERTEX
8
0
10
13406
20
12574
0
VERTEX
8
0
10
13430
20
12660
0
VERTEX
8
0
10
13448
20
12756
0
VERTEX
8
0
10
13456
20
12859
0
VERTEX
8
0
10
13256
20
12883
0
VERTEX
8
0
10
13163
20
12884
0
VERTEX
8
0
10
13074
20
12876
0
VERTEX
8
0
10
12911
20
12840
0
VERTEX
8
0
10
12836
20
12811
0
VERTEX
8
0
10
12765
20
12773
0
VERTEX
8
0
10
12640
20
12678
0
VERTEX
8
0
10
12584
20
12620
0
VERTEX
8
0
10
12532
20
12553
0
VERTEX
8
0
10
12444
20
12399
0
VERTEX
8
0
10
12373
20
12214
0
SEQEND
0
POLYLINE
8
0
62
255
66
1
40
1
41
1
0
VERTEX
8
0
10
11065
20
11021
0
VERTEX
8
0
10
11143
20
11163
0
VERTEX
8
0
10
11198
20
11316
0
VERTEX
8
0
10
11233
20
11482
0
VERTEX
8
0
10
11244
20
11660
0
VERTEX
8
0
10
11111
20
11667
0
VERTEX
8
0
10
10990
20
11663
0
VERTEX
8
0
10
10882
20
11651
0
VERTEX
8
0
10
10785
20
11628
0
VERTEX
8
0
10
10702
20
11597
0
VERTEX
8
0
10
10631
20
11555
0
VERTEX
8
0
10
10573
20
11505
0
VERTEX
8
0
10
10526
20
11444
0
VERTEX
8
0
10
10422
20
11532
0
VERTEX
8
0
10
10338
20
11626
0
VERTEX
8
0
10
10276
20
11729
0
VERTEX
8
0
10
10235
20
11839
0
VERTEX
8
0
10
10849
20
12468
0
VERTEX
8
0
10
9887
20
12534
0
VERTEX
8
0
10
9785
20
12527
0
VERTEX
8
0
10
9700
20
12502
0
VERTEX
8
0
10
9634
20
12459
0
VERTEX
8
0
10
9586
20
12396
0
VERTEX
8
0
10
9423
20
12002
0
VERTEX
8
0
10
10009
20
12002
0
VERTEX
8
0
10
9966
20
11945
0
VERTEX
8
0
10
9401
20
11948
0
VERTEX
8
0
10
9351
20
11826
0
VERTEX
8
0
10
9721
20
11826
0
VERTEX
8
0
10
9771
20
11710
0
VERTEX
8
0
10
9677
20
11597
0
VERTEX
8
0
10
9687
20
11588
0
VERTEX
8
0
10
9895
20
11394
0
VERTEX
8
0
10
10077
20
11196
0
VERTEX
8
0
10
10235
20
10995
0
VERTEX
8
0
10
10368
20
10790
0
VERTEX
8
0
10
10478
20
10583
0
VERTEX
8
0
10
10562
20
10372
0
VERTEX
8
0
10
10622
20
10159
0
VERTEX
8
0
10
10657
20
9941
0
VERTEX
8
0
10
10669
20
9722
0
VERTEX
8
0
10
10656
20
9499
0
VERTEX
8
0
10
10618
20
9273
0
VERTEX
8
0
10
10556
20
9043
0
VERTEX
8
0
10
10470
20
8811
0
VERTEX
8
0
10
10359
20
8575
0
VERTEX
8
0
10
10223
20
8337
0
VERTEX
8
0
10
10063
20
8094
0
VERTEX
8
0
10
10103
20
8019
0
VERTEX
8
0
10
10229
20
8164
0
VERTEX
8
0
10
10343
20
8311
0
VERTEX
8
0
10
10447
20
8459
0
VERTEX
8
0
10
10540
20
8608
0
VERTEX
8
0
10
10623
20
8760
0
VERTEX
8
0
10
10695
20
8913
0
VERTEX
8
0
10
10757
20
9068
0
VERTEX
8
0
10
10808
20
9223
0
VERTEX
8
0
10
10849
20
9382
0
VERTEX
8
0
10
10879
20
9542
0
VERTEX
8
0
10
10899
20
9703
0
VERTEX
8
0
10
10908
20
9866
0
VERTEX
8
0
10
10907
20
10031
0
VERTEX
8
0
10
10895
20
10198
0
VERTEX
8
0
10
10873
20
10366
0
VERTEX
8
0
10
10840
20
10535
0
VERTEX
8
0
10
10804
20
10660
0
VERTEX
8
0
10
10785
20
10766
0
VERTEX
8
0
10
10786
20
10855
0
VERTEX
8
0
10
10804
20
10924
0
VERTEX
8
0
10
10842
20
10976
0
VERTEX
8
0
10
10898
20
11009
0
VERTEX
8
0
10
10973
20
11024
0
VERTEX
8
0
10
11065
20
11021
0
SEQEND
0
POLYLINE
8
0
62
255
66
1
40
1
41
1
0
VERTEX
8
0
10
10088
20
10005
0
VERTEX
8
0
10
10028
20
10009
0
VERTEX
8
0
10
9995
20
10016
0
VERTEX
8
0
10
9973
20
10037
0
VERTEX
8
0
10
9962
20
10071
0
VERTEX
8
0
10
9962
20
10118
0
VERTEX
8
0
10
10135
20
10284
0
VERTEX
8
0
10
10217
20
10285
0
VERTEX
8
0
10
10249
20
10276
0
VERTEX
8
0
10
10274
20
10260
0
VERTEX
8
0
10
10306
20
10210
0
VERTEX
8
0
10
10313
20
10134
0
VERTEX
8
0
10
10291
20
10078
0
VERTEX
8
0
10
10246
20
10038
0
VERTEX
8
0
10
10179
20
10014
0
VERTEX
8
0
10
10088
20
10005
0
SEQEND
0
POLYLINE
8
0
62
255
66
1
40
1
41
1
0
VERTEX
8
0
10
10382
20
9645
0
VERTEX
8
0
10
10332
20
9572
0
VERTEX
8
0
10
10264
20
9515
0
VERTEX
8
0
10
10180
20
9478
0
VERTEX
8
0
10
10078
20
9457
0
VERTEX
8
0
10
10047
20
9454
0
VERTEX
8
0
10
10014
20
9461
0
VERTEX
8
0
10
9992
20
9482
0
VERTEX
8
0
10
9981
20
9517
0
VERTEX
8
0
10
9981
20
9564
0
VERTEX
8
0
10
10081
20
9670
0
VERTEX
8
0
10
10168
20
9740
0
VERTEX
8
0
10
10263
20
9799
0
VERTEX
8
0
10
10323
20
9796
0
VERTEX
8
0
10
10362
20
9769
0
VERTEX
8
0
10
10382
20
9719
0
VERTEX
8
0
10
10382
20
9645
0
SEQEND
0
POLYLINE
8
0
62
255
66
1
40
1
41
1
0
VERTEX
8
0
10
10179
20
8868
0
VERTEX
8
0
10
10239
20
8950
0
VERTEX
8
0
10
10270
20
9029
0
VERTEX
8
0
10
10274
20
9108
0
VERTEX
8
0
10
10248
20
9184
0
VERTEX
8
0
10
10209
20
9174
0
VERTEX
8
0
10
10168
20
9149
0
VERTEX
8
0
10
10125
20
9109
0
VERTEX
8
0
10
10078
20
9053
0
VERTEX
8
0
10
10085
20
8995
0
VERTEX
8
0
10
10104
20
8944
0
VERTEX
8
0
10
10136
20
8902
0
VERTEX
8
0
10
10179
20
8868
0
SEQEND
0
POLYLINE
8
0
62
255
66
1
40
1
41
1
0
VERTEX
8
0
10
9568
20
11463
0
VERTEX
8
0
10
9903
20
11083
0
VERTEX
8
0
10
9967
20
10996
0
VERTEX
8
0
10
9993
20
10908
0
VERTEX
8
0
10
9993
20
10864
0
VERTEX
8
0
10
9982
20
10819
0
VERTEX
8
0
10
9934
20
10729
0
VERTEX
8
0
10
8935
20
9752
0
VERTEX
8
0
10
8935
20
9667
0
VERTEX
8
0
10
9317
20
9748
0
VERTEX
8
0
10
9367
20
9673
0
VERTEX
8
0
10
8759
20
9059
0
VERTEX
8
0
10
9301
20
9191
0
VERTEX
8
0
10
9395
20
9134
0
VERTEX
8
0
10
8812
20
8504
0
VERTEX
8
0
10
9336
20
8652
0
VERTEX
8
0
10
9421
20
8674
0
VERTEX
8
0
10
9500
20
8684
0
VERTEX
8
0
10
9572
20
8682
0
VERTEX
8
0
10
9637
20
8666
0
VERTEX
8
0
10
9697
20
8640
0
VERTEX
8
0
10
9750
20
8602
0
VERTEX
8
0
10
9797
20
8552
0
VERTEX
8
0
10
9837
20
8489
0
VERTEX
8
0
10
10016
20
8175
0
VERTEX
8
0
10
10162
20
8409
0
VERTEX
8
0
10
10284
20
8638
0
VERTEX
8
0
10
10384
20
8865
0
VERTEX
8
0
10
10461
20
9088
0
VERTEX
8
0
10
10516
20
9309
0
VERTEX
8
0
10
10548
20
9526
0
VERTEX
8
0
10
10557
20
9741
0
VERTEX
8
0
10
10543
20
9951
0
VERTEX
8
0
10
10508
20
10160
0
VERTEX
8
0
10
10450
20
10365
0
VERTEX
8
0
10
10369
20
10568
0
VERTEX
8
0
10
10265
20
10766
0
VERTEX
8
0
10
10139
20
10963
0
VERTEX
8
0
10
9990
20
11155
0
VERTEX
8
0
10
9819
20
11345
0
VERTEX
8
0
10
9624
20
11531
0
VERTEX
8
0
10
9568
20
11463
0
SEQEND
0
ENDSEC
0
EOF
